Při poskytování našich služeb nám pomáhají soubory cookie. Využíváním našich služeb s jejich používáním souhlasíte. V pořádku Další informace

Já Ještě Nevim punk-rock / Toužim

Skladby v přehrávači

Pro přehrávání skladeb je třeba zapnutý javascript, flash plugin verze 9 nebo HTML5 kompatibilní browser.

Členové

Nástrojové obsazení: Kytara, Doprovodný zpěv
Nástrojové obsazení: Zpěv, Jódlování, Scream, Rap
Nástrojové obsazení: Kytara
Nástrojové obsazení: Baskytara, Kontrabas, Doprovodný zpěv
Nástrojové obsazení: Píšťala
Nástrojové obsazení: Doprovodný zpěv, Bicí, Mrdanga

Kontakty a odkazy

Dodatečné info

Manager:  Mašinka (Jiří Maška) -  607 522 412

E-mail:   jajestenevim@email.cz

Pro pořadatele:  Stage plan

Foto 

Bio a historie

Prostitutka - guitar TAB

tunnig Eb - Ab - Db - Gb - Bb - Eb

   RIFF A
e |----------------------------------------------|
b |----------------------------------------------|
g |-----------  -7-7--7--9-9--9--7-7-9-7----|
d |---7-7--7---7-7--7--9-9--9--7-7-9-7----|
a |---7-7--7---5-5--5--7-7--7--5-5-7-7----|
e |---5-5--5-----------------------------------|

   RIFF B                            
e |---------------------------------------------|
b |---------------------------------------------|
g |-----------  -7-7--7--9-9--9--7----9------|
d |---7-7--7---7-7--7--9-9--9--7----9------|
a |---7-7--7---5-5--5--7-7--7--5----7------|
e |---5-5--5-----------------------------------|
                                                .       .

    RIFF C - sloka
e |------------------------------------------------|
b |------------------------------------------------|
g |------------------------------------------------|
d |---------------7-7-777-------7---------5-----|
a |---7-7-7-7---5-5-555--7-9---9--5-7---7---|
e |---5-5-5-5------------------------------------|
        .  .  .  .     .  . 

   RIFF D
e |--------------------------------------------------|
b |--------------------------------------------------|
g |---------------7--7--- --9-9---9-----7---7-----|
d |---7-7---7---7--7------9-9---9-----7---7-----|
a |---7-7---7---5--5------7-7---7-----5---5-----|
e |---5-5---5---------------------------------------|
                        .   .                           .     .

    RIFF E
e |-----------------------------------------------------|---------|
b |-----------------------------------------------------|---------|
g |---------------7---7-----9-----9------7-----7--6--|---------|
d |---7-7---7---7---7-----9-----9------7-----7--6--|--7-----|
a |---7-7---7---5---5-----7-----7------5-----5--4--|--7-----|
e |---5-5---5-----------------------------------------|--5-----|
                        .     .

   Solo
e |-------------------------------------------------------------|
b |--/14-14-14-14-14\10-10-10-12-12-10-12/14\-10--|
g |-------------------------------------------------------------|
d |-------------------------------------------------------------|
a |-------------------------------------------------------------|
e |-------------------------------------------------------------|

e |---------------------------------------------------------|
b |-/14---14-14-14\10-10-10-12-12-10-12/14\10--|
g |---------------------------------------------------------|
d |---------------------------------------------------------|
a |---------------------------------------------------------|
e |---------------------------------------------------------|

e |-/-12---9-------------------12------12-\-10----10--|
b |------------10----10-/-12-----10------------10------|
g |---------------------------------------------------------|
d |---------------------------------------------------------|
a |---------------------------------------------------------|
e |---------------------------------------------------------|

e |-/-12---9------------------12-------10-----------|
b |------------10----10-/-12-----12---10----------|
g |----------------------------------------------------|
d |----------------------------------------------------|
a |----------------------------------------------------|
e |---------------------------------------------12-\--|

A 3x
B 1x
A 2x
C 2x
A 4x
C 2x
A 4x
C 2x
A 4x
C 2x
A 4x
Solo
D 3x
E 1x

Stojí - guitar TAB 

tunnig Eb - Ab - Db - Gb - Bb - Eb

   RIFF A
e |----------------------------------------------------------------|
b |----------------------------------------------------------------|
g |---14-14-14-14-10-10-10-10--5-5-5-5-12-12-12-12---|
d |---14-14-14-14-10-10-10-10--5-5-5-5-12-12-12-12---|
a |---12-12-12-12--8---8--8---8--3-3-3-3-10-10-10-10---|
e |---12-12-12-12--8---8--8---8--3-3-3-3-10-10-10-10---|

   RIFF B - clean
                A        A         F        F       C        C        G        G
e |---------5------5------1------1------8-------8------3------3----|
b |---------5------5------1------1------8-------8------3------3----|
g |---------6------6------2------2------9-------9------4------4----|
d |---------7------7------3------3-----10------10------5-----5----|
a |-----X--7--X--7--X---3--X---3--X--10--X--10--X--5--X--5----|
e |-----X--5--X--5--X--1---X---1--X---8--X---8---X--3--X--3----|
 
   RIFF C
e |-----------------------------------------------------------------|-----------|
b |-----------------------------------------------------------------|-----------|
g |---------------10--10--10--------------------19--19--19----|-----------|
d |--7--7--7----10--10--10----17--17--17----17--17--17---|--3--------|
a |--7--7--7-----8---8----8----15--15--15---------------------|--3--------|
e |--5--5--5------------------------------------------------------|--1---------|
 
   RIFF D
e |------------------------------10--------------------------------12-----|
b |-----------10----------10--------------------13---------12-----------|
g |-------9----------10-------------------12----------12----------------|
d |---7-------------------------------10----------------------------------|
a |------------------------------------------------------------------------|
e |------------------------------------------------------------------------|

   RIFF E
e |---------------------------10--------------------------------------------12-------------|
b |--------10------------10----10-------------------13----------------12---12----------|
g |------9----9-------10---------------10-------12----12---------12---------------12--|
d |---7-----------7--------------------------10---------------10--------------------------|
a |------------------------------------------------------------------------------------------|
e |------------------------------------------------------------------------------------------|

   RIFF F                                                                                     dist.
e |---------------------------10--------------------------------------12--12--12--12----|
b |--------10------------10----10------------------13--------------12--12--12--12----|
g |------9----9-------10---------------10-------12----12----------12--12--12--12----|
d |---7-----------7--------------------------10---------------10--------------------------|
a |------------------------------------------------------------------------------------------|
e |------------------------------------------------------------------------------------------|

   RIFF G
e |---------------------------------10--------10-------------|
b |---------10------10---------10--------10----10---------|
g |------9--------9-----9----10-------10-----------10-----|
d |---7--------7----------7----------------------------------|
a |-----------------------------------------------------------|
e |-----------------------------------------------------------|

e |-----------------------------------------12--------12---------|
b |---------13--------13--------------12--------12-----12-----|
g |-----12--------12-----12------12--------12-------------12-|
d |--10-------10-------------10---------------------------------|
a |----------------------------------------------------------------|
e |----------------------------------------------------------------|

e |---------------------------------10-------10-----------|
b |--------13------13----------10-------10----10-------|
g |-----12------12---12----10-------10-----------10---|
d |--10------10----------10------------------------------|
a |---------------------------------------------------------|
e |---------------------------------------------------------|

e |---------------------------------------12--13--12-----------------|
b |----------13-------13------------12----------------15--13--12--|
g |------12-------12----12------12----------------------------------|
d |---10-------10-----------10---------------------------------------|
a |---------------------------------------------------------------------|
e |---------------------------------------------------------------------|

   RIFF H
e |------------------------------------10-10-10-10-10-10-10-10------|
b |--10-10-10-10-10-10-10-10--10-10-10-10-10-10-10-10-------|
g |---9--9---9---9--9---9---9--9--10-10-10-10-10-10-10-10-------|
d |---7--7---7---7--7---7---7- 7----------------------------------------|
a |-------------------------------------------------------------------------|
e |-------------------------------------------------------------------------|

e |-----------------------------------12-12-12-12-12-12-12-12-------|
b |--13-13-13-13-13-13-13-13--12-12-12-12-12-12-12-12-------|
g |--12-12-12-12-12-12-12-12--12-12-12-12-12-12-12-12-------|
d |--10-10--10-10-10-10-10-10---------------------------------------|
a |-------------------------------------------------------------------------|
e |-------------------------------------------------------------------------|

   RIFF I
e |-------------------------------------------------------------------------|
b |-------------------------------------------------------------------------|
g |---14--14--14-----10--10--10-----5--5--5------12--12--12------|
d |---14--14--14-----10--10--10-----5--5--5------12--12--12------|
a |---12--12--12------8---8---8-------3--3--3------10--10--10------|
e |---12--12--12------8---8---8-------3--3--3------10--10--10------|

A 4x
B 2x
A 2x
B 2x
A 3x
C 1x
D 2x
E 1x
F 1x
A 4x
B 2x
A 2x
B 2x
A 3x
C 1x
D 2x
E 2x
G 1x
H 2x
A 4x
I 4x

TETA

sloka 1

C                      D                     F                           E
TOULÁŠ SE SE MNOU LESEM, V PODVEČERNÍCH HODINÁCH

C              D                      F                        E
TO CO SI O MĚ MYSLÍŠ, Z TOHO NEMÁM ŽÁDNEJ STRACH

C                D                         F                    E
JENOM SE TROCHU BOJIM, CO SE MNOU UDĚLÁŠ

C                  D                     F                      E
TEĎ UŽ JSI TROCHU JINÁ, NO TAK SI MĚ VAŽ

 Refren
C                          G                  Ami           F                  
PROČ Z TVOJICH ÚST PRÁVĚ TEĎ  LEZE JENOM HOLÁ

C                  G                      Ami                   F 
VĚTA, TY SI O MNĚ MYSLÍŠ ŽE JSEM ŇÁKÁ SVINĚ SKETA JASNĚ

Sloka 2
TVRDÍŠ ŽE MĚ MÁŠ RÁDA
ALE JÁ TI NEVĚŘÍM
MÁŠ MĚ JEN ZA KAMARÁDA
PÍSKNEŠ A JÁ POBĚŽÍM
TEĎ UŽ JSI TROCHU JINÁ
ALE POŘÁD SEŠ TO TY
ALE ASI SKONČÍME TO
MÁM SMÍŠENÉ POCITY

Refren

Guitar TAB 
tunnig Eb - Ab - Db - Gb - Bb - Eb

   Solo 1
e |--------------------------------------------------------------------------------------------|
b |--------------------------------------------------------------------------------------------|
G |----------------12-------------------------------------------------------------------------|
D |-/-10----14-------12-------12-h-14--12-h-14--10--------/10-------10--10-h-12---|
A |----------------------------------------------------------12\-------12--------------------|
E |--------------------------------------------------------------------------------------------|

e |--------------------------------------------------------------------------------------------|
b |--------------------------------------------------------------------------------------------|
G |--------------12------------------------12------------------------------------------------|
D |-/-10----14-------12-------12-h-14------14--10-------/10-------10--10-h-12------|
A |-------------------------------------------------------12\-------12-----------------------|
E |--------------------------------------------------------------------------------------------|

e |--------------------------------------------------------------------------------------------|
b |--------------------------------------------------------------------------------------------|
G |----------------12-------------------------------------------------------------------------|
D |-/-10----14-------12-------12-h-14--12-h-14--10-------/10-------10--10-h-12----|
A |---------------------------------------------------------12\-------12---------------------|
E |--------------------------------------------------------------------------------------------|

e |----------------------------------------------------------------------------------------------|
b |----------------------------------------------------------------------------------------------|
G |----------------12------------------------12------------------------------------------------|
D |-/-10----14-------12-------12-h-14------14--10-------/10-------10--10-h-12--10\---|
A |-------------------------------------------------------12\-------12--------------------------|
E |-----------------------------------------------------------------------------------------------|

    RIFF A
e |-----------------------------------------------------------------------------------------------------------|
b |-----------------------------------------------------------------------------------------------------------|
G |-------5--------5-------5-------7--------7------7-------10--------10-----10--------9-----7----------|
D |-------5--------5-------5-------7--------7------7-------------------------------------------------10---|
A |--3-3-3---3-3-3---3--3--5-5-5---5-5-5--5--5--8-8-------8-8-------8------7-7-----7-----7-------|
E |-----------------------------------------------------------------------------------------------------------|

e |-----------------------------------------------------------------------------------------------------------|
b |-----------------------------------------------------------------------------------------------------------|
G |-------5--------5-------5-------7--------7------7-------10--------10-----10--------9---10-----9\---|
D |-------5--------5-------5-------7--------7------7-------------------------------------------------------|
A |--3-3-3---3-3-3---3--3--5-5-5---5-5-5--5--5--8-8-------8-8-------8-------7-7---7------7-------|
E |-----------------------------------------------------------------------------------------------------------|

    Riff B
e |-----------------------------------------------------------------------------------|
b |-----------------------------------------------------------------------------------|
G |--5-5-5-5-5-5-5-5--------------------------------------------------------------|
D |--5-5-5-5-5-5-5-5-5-5-5-5-5-5-5-5-7-7-7-7-7-7-7-7-3-3-3-3-3-3-3-3--|
A |--3-3-3-3-3-3-3-3-5-5-5-5-5-5-5-5-7-7-7-7-7-7-7-7-3-3-3-3-3-3-3-3--|
E |----------------------3-3-3-3-3-3-3-3-5-5-5-5-5-5-5-5-1-1-1-1-1-1-1-1--|

    Solo 2
e |--------------------------------------------------------------------------------------------|
b |--------------------------------------------------------------------------------------------|
G |----------------12-------------------------------------------------------------------------|
D |-/-10----14-------12-------12-h-14--12-h-14--10-------/10-------10--10-h-12---|
A |---------------------------------------------------------12\-------12---------------------|
E |---------------------------------------------------------------------------------------------|

e |-----------------------------------------------------------------------------------------------|
b |-----------------------------------------------------------------------------------------------|
G |----------------12----------------------12---------------------------------------------------|
D |-/-10----14-------12-------12-h-14------14--10-------/10-------10--10-h-12--10\---|
A |-------------------------------------------------------12\-------12--------------------------|
E |-----------------------------------------------------------------------------------------------|

    Solo 3
e |--------------------------------------------------------------------------------------------|
b |--------------------------------------------------------------------------------------------|
G |---------------12--------------------------------------------------------------------------|
D |-/-10----14-------12-------12-h-14--12-h-14--10-------/10-------10--10-h-12----|
A |---------------------------------------------------------12\-------12---------------------|
E |---------------------------------------------------------------------------------------------|

e |-------------------------------------------------------------------------------------12----------------|
b |-------------------------------------------------------12----12--13--12--13--15----15--13--12--|
G |------------12---------------12----12--14--12--14---14-------------------------------------------|
D |-/-10--14----12--12-h-14----14-------------------------------------------------------------------|
A |--------------------------------------------------------------------------------------------------------|
E |--------------------------------------------------------------------------------------------------------|

e |-------------15--------------------------------------------------------------------------|
b |--13--17--------15-------15-h-17--15-h-17--13-------/13-------13--13-h-15---|
G |-------------------------------------------------------14\-------14---------------------|
D |------------------------------------------------------------------------------------------|
A |------------------------------------------------------------------------------------------|
E |------------------------------------------------------------------------------------------|

e |------------15-------------------------15-------------------------------------------------------------|
b |--13--17--------15-------15-h-17--------17--13-------/13-------13--13-h-15---13-~~~~~-|
G |------------------------------------------------------14\-------14------------------------------------|
D |--------------------------------------------------------------------------------------------------------|
A |--------------------------------------------------------------------------------------------------------|
E |--------------------------------------------------------------------------------------------------------|

Solo 1
Riff A - 2x
Riff B - 4x
Solo 2
Riff A - 2x
Riff B - 4x
Solo 3